Okean

objavljeno dana

 [capo 4]
intro:
e|-----------------------------------------------------11p0------9p0--------------------------------------------------|
b|---------------------------------------0-------------0-----------0----------------------------------------------------|
g|-----------0--------------0---------0---------------0-----------0---------------0-----------------------------------|
d|---------9--9----------8--8------6---6----------9---9-------8--8---------9---9----------------------------------|
a|------11-----11-----9-----9---7------7------11-----11---9-----9-----7--------7---------0-7 0----------------|
e|----0------------------------------------------0--------------------------------------------0-7-----------------------|

verse:
e|-------0------0----7p0----11p0--9p0---0---7p0----11p0--9p0----0---------------------------------------------|
b|-------0------0-----0--------0------0----0h7-----------0-------0-------0------------------------------------|
g|-------0------0-----0--------0------0-----0-------------0-------0-------0-----------------------------------|
d|-------9------8-----6--------9------8-----6-------------9-------8-------9-----------------------------------|
a|------11-----9-----7-------11------9-----7------------11------9-------7-------------------------0-7 0-------|
e|----0-----------------------0---------------------------0----------------------------------------0-7--------|

Naši su dani torpedovan brod
na dno nas vuku prećutane reči
zamišljam tvoje korake i tvoj hod
sve si mi dalje

Okean je ipak veći od nas

Porasli smo u ljubavi prema sebi
nežni još samo prema mačkama i psima
odustajemo lako, mada nema nazad
podiže se voda, progutaće nas plima

Okean je ipak veći od nas

bridge:
e|----0----------0---0-----------------|x3 -----0---0-----------0------------------0--------------------|
b|----0----------0---0-----------------|--------0---0-----------0------------------0--------------------|
g|----0----------0---0-----------------|--------0---0-----------0------------------0--------------------|
d|----6---0h6----6---6-----------------|--------6---6-----0h6---6----/------11-----11-------------------|
a|----6---0h6----6---6------9-9-7-0----|--------6---6-----0h6---6----/-------11----11-------------------|
e|----0----------0---0-----------------|--------0---0-----------0------------------0--------------------|

riff: [denf]
e|----------------------------------------|x3-----------------------------------------------------------|
b|----------------------------------------|-------------------------------------------------------------|
g|----------------------------------------|-------------------------------------------------------------|
d|----6--0h6---6---6----------------------|--------6---6----0h6--6----/-----~11-------------------------|
a|----6--0h6---6---6----9-9-7-0-----------|--------6---6----0h6--6----/-----~11-------------------------|
e|----0----------0---0--------------------|--------0---0-----------0------------------------------------|

Nijedan čovek nije ostrvo za sebe
nije luka svoja, niti spas
Nijedan čovek nema odgovor za vreme
nema volju svoju, niti vlast

C  A
Dobro je Okean, siguran i lak,
riff
ali šta ćemo mi sad?

Okej je Okean, nežan i plav,
ali šta ćemo mi sad?

Velik je Okean, stabilan i jak,
ali gde ćemo mi sad?
Čuje se Okean, urla na sav glas
i gde ćemo mi sad?

C  A  Em
Umire Okean negde daleko od nas.

Preporučujemo

Prva rstva

Em D A D

Sanjam luku u kojoj spavaju čamci
duboko duboko
žene na doku podigle su ruke
visoko ...

Otac

E G D

U pravu je Morison što rekao je da ubiće svoga oca
i kameni disk što kleše se da Edip ubije ...

Komentari